ISO-10303-21;
HEADER;
/* Generated by software containing ST-Developer
 * from STEP Tools, Inc. (www.steptools.com) 
 */
/* OPTION: using custom renumber hook */

FILE_DESCRIPTION(
/* description */ ('STEP AP242',
'CAx-IF Rec.Pracs.---Representation and Presentation of Product Manufa
cturing Information (PMI)---4.0---2014-10-13',
'CAx-IF Rec.Pracs.---3D Tessellated Geometry---0.4---2014-09-14','2;1'),

/* implementation_level */ '2;1');

FILE_NAME(
/* name */ '67646c184adeaf7533214e09',
/* time_stamp */ '2024-12-19T18:55:20Z',
/* author */ (''),
/* organization */ (''),
/* preprocessor_version */ 'ST-DEVELOPER v20',
/* originating_system */ 'ONSHAPE BY PTC INC, 1.191',
/* authorisation */ '  ');

FILE_SCHEMA (('AP242_MANAGED_MODEL_BASED_3D_ENGINEERING_MIM_LF { 1 0 10303 442 1 1 4 }'));
ENDSEC;

DATA;
#10=SHAPE_REPRESENTATION_RELATIONSHIP('','',#151,#11);
#11=ADVANCED_BREP_SHAPE_REPRESENTATION('',(#149),#249);
#12=CIRCLE('',#155,0.007);
#13=CIRCLE('',#156,0.007);
#14=CIRCLE('',#159,0.0025);
#15=CIRCLE('',#160,0.0025);
#16=CIRCLE('',#162,0.007);
#17=CIRCLE('',#163,0.007);
#18=CIRCLE('',#165,0.0025);
#19=CIRCLE('',#166,0.0025);
#20=CYLINDRICAL_SURFACE('',#154,0.007);
#21=CYLINDRICAL_SURFACE('',#158,0.0025);
#22=CYLINDRICAL_SURFACE('',#161,0.007);
#23=CYLINDRICAL_SURFACE('',#164,0.0025);
#24=ORIENTED_EDGE('',*,*,#56,.T.);
#25=ORIENTED_EDGE('',*,*,#57,.F.);
#26=ORIENTED_EDGE('',*,*,#58,.F.);
#27=ORIENTED_EDGE('',*,*,#59,.T.);
#28=ORIENTED_EDGE('',*,*,#60,.F.);
#29=ORIENTED_EDGE('',*,*,#61,.F.);
#30=ORIENTED_EDGE('',*,*,#62,.T.);
#31=ORIENTED_EDGE('',*,*,#57,.T.);
#32=ORIENTED_EDGE('',*,*,#63,.F.);
#33=ORIENTED_EDGE('',*,*,#64,.F.);
#34=ORIENTED_EDGE('',*,*,#65,.T.);
#35=ORIENTED_EDGE('',*,*,#61,.T.);
#36=ORIENTED_EDGE('',*,*,#66,.T.);
#37=ORIENTED_EDGE('',*,*,#67,.F.);
#38=ORIENTED_EDGE('',*,*,#68,.F.);
#39=ORIENTED_EDGE('',*,*,#59,.F.);
#40=ORIENTED_EDGE('',*,*,#69,.T.);
#41=ORIENTED_EDGE('',*,*,#64,.T.);
#42=ORIENTED_EDGE('',*,*,#70,.T.);
#43=ORIENTED_EDGE('',*,*,#71,.F.);
#44=ORIENTED_EDGE('',*,*,#58,.T.);
#45=ORIENTED_EDGE('',*,*,#62,.F.);
#46=ORIENTED_EDGE('',*,*,#65,.F.);
#47=ORIENTED_EDGE('',*,*,#69,.F.);
#48=ORIENTED_EDGE('',*,*,#66,.F.);
#49=ORIENTED_EDGE('',*,*,#70,.F.);
#50=ORIENTED_EDGE('',*,*,#56,.F.);
#51=ORIENTED_EDGE('',*,*,#68,.T.);
#52=ORIENTED_EDGE('',*,*,#63,.T.);
#53=ORIENTED_EDGE('',*,*,#60,.T.);
#54=ORIENTED_EDGE('',*,*,#67,.T.);
#55=ORIENTED_EDGE('',*,*,#71,.T.);
#56=EDGE_CURVE('',#72,#73,#84,.T.);
#57=EDGE_CURVE('',#74,#73,#85,.T.);
#58=EDGE_CURVE('',#75,#74,#86,.T.);
#59=EDGE_CURVE('',#75,#72,#87,.T.);
#60=EDGE_CURVE('',#76,#73,#12,.T.);
#61=EDGE_CURVE('',#77,#76,#88,.T.);
#62=EDGE_CURVE('',#77,#74,#13,.T.);
#63=EDGE_CURVE('',#78,#76,#89,.T.);
#64=EDGE_CURVE('',#79,#78,#90,.T.);
#65=EDGE_CURVE('',#79,#77,#91,.T.);
#66=EDGE_CURVE('',#80,#80,#14,.T.);
#67=EDGE_CURVE('',#81,#81,#15,.T.);
#68=EDGE_CURVE('',#72,#78,#16,.T.);
#69=EDGE_CURVE('',#75,#79,#17,.T.);
#70=EDGE_CURVE('',#82,#82,#18,.T.);
#71=EDGE_CURVE('',#83,#83,#19,.T.);
#72=VERTEX_POINT('',#214);
#73=VERTEX_POINT('',#215);
#74=VERTEX_POINT('',#217);
#75=VERTEX_POINT('',#219);
#76=VERTEX_POINT('',#223);
#77=VERTEX_POINT('',#225);
#78=VERTEX_POINT('',#229);
#79=VERTEX_POINT('',#231);
#80=VERTEX_POINT('',#235);
#81=VERTEX_POINT('',#237);
#82=VERTEX_POINT('',#243);
#83=VERTEX_POINT('',#245);
#84=LINE('',#213,#92);
#85=LINE('',#216,#93);
#86=LINE('',#218,#94);
#87=LINE('',#220,#95);
#88=LINE('',#224,#96);
#89=LINE('',#228,#97);
#90=LINE('',#230,#98);
#91=LINE('',#232,#99);
#92=VECTOR('',#173,1.);
#93=VECTOR('',#174,1.);
#94=VECTOR('',#175,1.);
#95=VECTOR('',#176,1.);
#96=VECTOR('',#181,1.);
#97=VECTOR('',#186,1.);
#98=VECTOR('',#187,1.);
#99=VECTOR('',#188,1.);
#100=EDGE_LOOP('',(#24,#25,#26,#27));
#101=EDGE_LOOP('',(#28,#29,#30,#31));
#102=EDGE_LOOP('',(#32,#33,#34,#35));
#103=EDGE_LOOP('',(#36));
#104=EDGE_LOOP('',(#37));
#105=EDGE_LOOP('',(#38,#39,#40,#41));
#106=EDGE_LOOP('',(#42));
#107=EDGE_LOOP('',(#43));
#108=EDGE_LOOP('',(#44,#45,#46,#47));
#109=EDGE_LOOP('',(#48));
#110=EDGE_LOOP('',(#49));
#111=EDGE_LOOP('',(#50,#51,#52,#53));
#112=EDGE_LOOP('',(#54));
#113=EDGE_LOOP('',(#55));
#114=FACE_BOUND('',#100,.T.);
#115=FACE_BOUND('',#101,.T.);
#116=FACE_BOUND('',#102,.T.);
#117=FACE_BOUND('',#103,.T.);
#118=FACE_BOUND('',#104,.T.);
#119=FACE_BOUND('',#105,.T.);
#120=FACE_BOUND('',#106,.T.);
#121=FACE_BOUND('',#107,.T.);
#122=FACE_BOUND('',#108,.T.);
#123=FACE_BOUND('',#109,.T.);
#124=FACE_BOUND('',#110,.T.);
#125=FACE_BOUND('',#111,.T.);
#126=FACE_BOUND('',#112,.T.);
#127=FACE_BOUND('',#113,.T.);
#128=PLANE('',#153);
#129=PLANE('',#157);
#130=PLANE('',#167);
#131=PLANE('',#168);
#132=ADVANCED_FACE('',(#114),#128,.F.);
#133=ADVANCED_FACE('',(#115),#20,.T.);
#134=ADVANCED_FACE('',(#116),#129,.T.);
#135=ADVANCED_FACE('',(#117,#118),#21,.F.);
#136=ADVANCED_FACE('',(#119),#22,.T.);
#137=ADVANCED_FACE('',(#120,#121),#23,.F.);
#138=ADVANCED_FACE('',(#122,#123,#124),#130,.T.);
#139=ADVANCED_FACE('',(#125,#126,#127),#131,.F.);
#140=CLOSED_SHELL('',(#132,#133,#134,#135,#136,#137,#138,#139));
#141=STYLED_ITEM('',(#142),#149);
#142=PRESENTATION_STYLE_ASSIGNMENT((#143));
#143=SURFACE_STYLE_USAGE(.BOTH.,#144);
#144=SURFACE_SIDE_STYLE('',(#145));
#145=SURFACE_STYLE_FILL_AREA(#146);
#146=FILL_AREA_STYLE('',(#147));
#147=FILL_AREA_STYLE_COLOUR('',#148);
#148=COLOUR_RGB('',0.972549019607843,0.529411764705882,0.00392156862745098);
#149=MANIFOLD_SOLID_BREP('Part 4',#140);
#150=SHAPE_DEFINITION_REPRESENTATION(#254,#151);
#151=SHAPE_REPRESENTATION('Part 4',(#152),#249);
#152=AXIS2_PLACEMENT_3D('',#211,#169,#170);
#153=AXIS2_PLACEMENT_3D('',#212,#171,#172);
#154=AXIS2_PLACEMENT_3D('',#221,#177,#178);
#155=AXIS2_PLACEMENT_3D('',#222,#179,#180);
#156=AXIS2_PLACEMENT_3D('',#226,#182,#183);
#157=AXIS2_PLACEMENT_3D('',#227,#184,#185);
#158=AXIS2_PLACEMENT_3D('',#233,#189,#190);
#159=AXIS2_PLACEMENT_3D('',#234,#191,#192);
#160=AXIS2_PLACEMENT_3D('',#236,#193,#194);
#161=AXIS2_PLACEMENT_3D('',#238,#195,#196);
#162=AXIS2_PLACEMENT_3D('',#239,#197,#198);
#163=AXIS2_PLACEMENT_3D('',#240,#199,#200);
#164=AXIS2_PLACEMENT_3D('',#241,#201,#202);
#165=AXIS2_PLACEMENT_3D('',#242,#203,#204);
#166=AXIS2_PLACEMENT_3D('',#244,#205,#206);
#167=AXIS2_PLACEMENT_3D('',#246,#207,#208);
#168=AXIS2_PLACEMENT_3D('',#247,#209,#210);
#169=DIRECTION('',(0.,0.,1.));
#170=DIRECTION('',(1.,0.,0.));
#171=DIRECTION('',(0.947445667550324,-0.319916718913096,0.));
#172=DIRECTION('',(0.319916718913096,0.947445667550324,0.));
#173=DIRECTION('',(-0.319916718913096,-0.947445667550324,0.));
#174=DIRECTION('',(0.,0.,-1.));
#175=DIRECTION('',(-0.319916718913096,-0.947445667550324,0.));
#176=DIRECTION('',(0.,0.,-1.));
#177=DIRECTION('',(0.,0.,-1.));
#178=DIRECTION('',(-1.,0.,0.));
#179=DIRECTION('',(0.,0.,-1.));
#180=DIRECTION('',(1.,0.,0.));
#181=DIRECTION('',(0.,0.,-1.));
#182=DIRECTION('',(0.,0.,-1.));
#183=DIRECTION('',(1.,0.,0.));
#184=DIRECTION('',(0.947445667550324,-0.319916718913096,0.));
#185=DIRECTION('',(0.319916718913096,0.947445667550324,0.));
#186=DIRECTION('',(-0.319916718913096,-0.947445667550324,0.));
#187=DIRECTION('',(0.,0.,-1.));
#188=DIRECTION('',(-0.319916718913096,-0.947445667550324,0.));
#189=DIRECTION('',(0.,0.,-1.));
#190=DIRECTION('',(-1.,0.,0.));
#191=DIRECTION('',(0.,0.,1.));
#192=DIRECTION('',(1.,0.,0.));
#193=DIRECTION('',(0.,0.,1.));
#194=DIRECTION('',(1.,0.,0.));
#195=DIRECTION('',(0.,0.,-1.));
#196=DIRECTION('',(-1.,0.,0.));
#197=DIRECTION('',(0.,0.,-1.));
#198=DIRECTION('',(1.,0.,0.));
#199=DIRECTION('',(0.,0.,-1.));
#200=DIRECTION('',(1.,0.,0.));
#201=DIRECTION('',(0.,0.,-1.));
#202=DIRECTION('',(-1.,0.,0.));
#203=DIRECTION('',(0.,0.,1.));
#204=DIRECTION('',(1.,0.,0.));
#205=DIRECTION('',(0.,0.,1.));
#206=DIRECTION('',(1.,0.,0.));
#207=DIRECTION('',(0.,0.,1.));
#208=DIRECTION('',(1.,0.,0.));
#209=DIRECTION('',(0.,0.,1.));
#210=DIRECTION('',(1.,0.,0.));
#211=CARTESIAN_POINT('',(0.,0.,0.));
#212=CARTESIAN_POINT('',(0.0223678803271477,0.255739417032392,0.0275));
#213=CARTESIAN_POINT('',(0.0223678803271477,0.255739417032392,0.0235));
#214=CARTESIAN_POINT('',(0.0353678803271478,0.294239417032391,0.0235));
#215=CARTESIAN_POINT('',(0.00936788032714774,0.217239417032391,0.0235));
#216=CARTESIAN_POINT('',(0.00936788032714774,0.217239417032391,0.0275));
#217=CARTESIAN_POINT('',(0.00936788032714774,0.217239417032391,0.0275));
#218=CARTESIAN_POINT('',(0.0223678803271477,0.255739417032392,0.0275));
#219=CARTESIAN_POINT('',(0.0353678803271478,0.294239417032391,0.0275));
#220=CARTESIAN_POINT('',(0.0353678803271478,0.294239417032391,0.0275));
#221=CARTESIAN_POINT('',(0.016,0.215,0.0275));
#222=CARTESIAN_POINT('',(0.016,0.215,0.0235));
#223=CARTESIAN_POINT('',(0.0226321196728523,0.212760582967608,0.0235));
#224=CARTESIAN_POINT('',(0.0226321196728523,0.212760582967608,0.0275));
#225=CARTESIAN_POINT('',(0.0226321196728523,0.212760582967608,0.0275));
#226=CARTESIAN_POINT('',(0.016,0.215,0.0275));
#227=CARTESIAN_POINT('',(0.0356321196728522,0.251260582967609,0.0275));
#228=CARTESIAN_POINT('',(0.0356321196728522,0.251260582967609,0.0235));
#229=CARTESIAN_POINT('',(0.0486321196728523,0.289760582967608,0.0235));
#230=CARTESIAN_POINT('',(0.0486321196728523,0.289760582967608,0.0275));
#231=CARTESIAN_POINT('',(0.0486321196728523,0.289760582967608,0.0275));
#232=CARTESIAN_POINT('',(0.0356321196728522,0.251260582967609,0.0275));
#233=CARTESIAN_POINT('',(0.042,0.292,0.0275));
#234=CARTESIAN_POINT('',(0.042,0.292,0.0275));
#235=CARTESIAN_POINT('',(0.0445,0.292,0.0275));
#236=CARTESIAN_POINT('',(0.042,0.292,0.0235));
#237=CARTESIAN_POINT('',(0.0445,0.292,0.0235));
#238=CARTESIAN_POINT('',(0.042,0.292,0.0275));
#239=CARTESIAN_POINT('',(0.042,0.292,0.0235));
#240=CARTESIAN_POINT('',(0.042,0.292,0.0275));
#241=CARTESIAN_POINT('',(0.016,0.215,0.0275));
#242=CARTESIAN_POINT('',(0.016,0.215,0.0275));
#243=CARTESIAN_POINT('',(0.0185,0.215,0.0275));
#244=CARTESIAN_POINT('',(0.016,0.215,0.0235));
#245=CARTESIAN_POINT('',(0.0185,0.215,0.0235));
#246=CARTESIAN_POINT('',(0.0275,0.252,0.0275));
#247=CARTESIAN_POINT('',(0.0275,0.252,0.0235));
#248=MECHANICAL_DESIGN_GEOMETRIC_PRESENTATION_REPRESENTATION('',(#141),
#249);
#249=(
GEOMETRIC_REPRESENTATION_CONTEXT(3)
GLOBAL_UNCERTAINTY_ASSIGNED_CONTEXT((#250))
GLOBAL_UNIT_ASSIGNED_CONTEXT((#253,#252,#251))
REPRESENTATION_CONTEXT('Part 4','TOP_LEVEL_ASSEMBLY_PART')
);
#250=UNCERTAINTY_MEASURE_WITH_UNIT(LENGTH_MEASURE(1.E-8),#253,
'DISTANCE_ACCURACY_VALUE','Maximum Tolerance applied to model');
#251=(
NAMED_UNIT(*)
SI_UNIT($,.STERADIAN.)
SOLID_ANGLE_UNIT()
);
#252=(
NAMED_UNIT(*)
PLANE_ANGLE_UNIT()
SI_UNIT($,.RADIAN.)
);
#253=(
LENGTH_UNIT()
NAMED_UNIT(*)
SI_UNIT($,.METRE.)
);
#254=PRODUCT_DEFINITION_SHAPE('','',#255);
#255=PRODUCT_DEFINITION('','',#257,#256);
#256=PRODUCT_DEFINITION_CONTEXT('',#263,'design');
#257=PRODUCT_DEFINITION_FORMATION_WITH_SPECIFIED_SOURCE('','',#259,
 .NOT_KNOWN.);
#258=PRODUCT_RELATED_PRODUCT_CATEGORY('','',(#259));
#259=PRODUCT('Part 4','Part 4','Part 4',(#261));
#260=PRODUCT_CATEGORY('','');
#261=PRODUCT_CONTEXT('',#263,'mechanical');
#262=APPLICATION_PROTOCOL_DEFINITION('international standard',
'ap242_managed_model_based_3d_engineering',2011,#263);
#263=APPLICATION_CONTEXT('managed model based 3d engineering');
ENDSEC;
END-ISO-10303-21;
